0
SECTION
2
HEADER
9
$INSUNITS
70
4
9
$ACADVER
1
AC1014
9
$HANDSEED
5
FFFF
0
ENDSEC
0
SECTION
2
TABLES
0
TABLE
2
VPORT
5
8
100
AcDbSymbolTable
0
ENDTAB
0
TABLE
2
LTYPE
5
5
100
AcDbSymbolTable
0
LTYPE
5
14
100
AcDbSymbolTableRecord
100
AcDbLinetypeTableRecord
2
BYBLOCK
70
0
0
LTYPE
5
15
100
AcDbSymbolTableRecord
100
AcDbLinetypeTableRecord
2
BYLAYER
70
0
0
ENDTAB
0
TABLE
2
LAYER
5
2
100
AcDbSymbolTable
70
2
0
LAYER
5
50
100
AcDbSymbolTableRecord
100
AcDbLayerTableRecord
2
0
70
0
6
CONTINUOUS
0
ENDTAB
0
TABLE
2
STYLE
5
3
100
AcDbSymbolTable
70
1
0
STYLE
5
11
100
AcDbSymbolTableRecord
100
AcDbTextStyleTableRecord
2
STANDARD
70
0
0
ENDTAB
0
TABLE
2
VIEW
5
6
100
AcDbSymbolTable
70
0
0
ENDTAB
0
TABLE
2
UCS
5
7
100
AcDbSymbolTable
70
0
0
ENDTAB
0
TABLE
2
APPID
5
9
100
AcDbSymbolTable
70
2
0
APPID
5
12
100
AcDbSymbolTableRecord
100
AcDbRegAppTableRecord
2
ACAD
70
0
0
ENDTAB
0
TABLE
2
DIMSTYLE
5
A
100
AcDbSymbolTable
70
1
0
ENDTAB
0
TABLE
2
BLOCK_RECORD
5
1
100
AcDbSymbolTable
70
1
0
BLOCK_RECORD
5
1F
100
AcDbSymbolTableRecord
100
AcDbBlockTableRecord
2
*MODEL_SPACE
0
BLOCK_RECORD
5
1B
100
AcDbSymbolTableRecord
100
AcDbBlockTableRecord
2
*PAPER_SPACE
0
ENDTAB
0
ENDSEC
0
SECTION
2
BLOCKS
0
BLOCK
5
20
100
AcDbEntity
100
AcDbBlockBegin
2
*MODEL_SPACE
0
ENDBLK
5
21
100
AcDbEntity
100
AcDbBlockEnd
0
BLOCK
5
1C
100
AcDbEntity
100
AcDbBlockBegin
2
*PAPER_SPACE
0
ENDBLK
5
1D
100
AcDbEntity
100
AcDbBlockEnd
0
ENDSEC
0
SECTION
2
ENTITIES
0
LINE
5
100
100
AcDbEntity
8
0
100
AcDbLine
10
11.944999984589103
20
-10.000555173312671
30
0
11
11.944999984589138
21
-0.0005551733126710201
31
0
0
LINE
5
101
100
AcDbEntity
8
0
100
AcDbLine
10
8.0549999845891342
20
4.2725697112222516e-15
30
0
11
8.0549999845890632
21
-10.00055517331268
31
0
0
LINE
5
102
100
AcDbEntity
8
0
100
AcDbLine
10
8.0549999845890632
20
-10.00055517331268
30
0
11
11.944999984589103
21
-10.000555173312671
31
0
0
LWPOLYLINE
5
103
100
AcDbEntity
8
0
100
AcDbPolyline
90
4
70
1
43
0.0
10
-17.066899571117627
20
-21.993859230352371
10
-17.066899571117663
20
-31.993859230352378
10
-20.956899571117699
20
-31.993859230352385
10
-20.956899571117628
20
-21.993859230352371
0
LINE
5
104
100
AcDbEntity
8
0
100
AcDbLine
10
20.000000000000028
20
1.1102230246251565e-14
30
0
11
11.944999984589138
21
6.3366195970915307e-15
31
0
0
LINE
5
105
100
AcDbEntity
8
0
100
AcDbLine
10
8.0549999845891342
20
4.2725697112222516e-15
30
0
11
0
21
0
31
0
0
LINE
5
106
100
AcDbEntity
8
0
100
AcDbLine
10
17.184174821185493
20
-15.115977311030708
30
0
11
25.972500000000029
21
-10.344673448205102
31
0
0
LINE
5
107
100
AcDbEntity
8
0
100
AcDbLine
10
15.2391748211855
20
-11.747138490309242
30
0
11
17.184174821185493
21
-15.115977311030708
31
0
0
LINE
5
108
100
AcDbEntity
8
0
100
AcDbLine
10
24.027500000000028
20
-6.9758346274836409
30
0
11
15.2391748211855
21
-11.747138490309242
31
0
0
LINE
5
109
100
AcDbEntity
8
0
100
AcDbLine
10
30.000000000000036
20
-17.32050807568876
30
0
11
25.972500000000029
21
-10.344673448205102
31
0
0
LINE
5
110
100
AcDbEntity
8
0
100
AcDbLine
10
24.027500000000028
20
-6.9758346274836409
30
0
11
20.000000000000028
21
1.1102230246251565e-14
31
0
0
LINE
5
111
100
AcDbEntity
8
0
100
AcDbLine
10
11.945000000000059
20
-34.641016151377499
30
0
11
11.945000000000094
21
-24.641016151377499
31
0
0
LINE
5
112
100
AcDbEntity
8
0
100
AcDbLine
10
8.0550000000001045
20
-24.641016151377571
30
0
11
8.0550000000000157
21
-34.641016151377428
31
0
0
LINE
5
113
100
AcDbEntity
8
0
100
AcDbLine
10
11.945000000000094
20
-24.641016151377499
30
0
11
8.0550000000001045
21
-24.641016151377571
31
0
0
LINE
5
114
100
AcDbEntity
8
0
100
AcDbLine
10
25.964024531204135
20
-24.311022645744874
30
0
11
17.167375423461447
21
-19.555082730728095
31
0
0
LINE
5
115
100
AcDbEntity
8
0
100
AcDbLine
10
15.223221501115018
20
-22.924409892970637
30
0
11
24.027923038826827
21
-27.665425694654399
31
0
0
LINE
5
116
100
AcDbEntity
8
0
100
AcDbLine
10
17.167375423461447
20
-19.555082730728095
30
0
11
15.223221501115018
21
-22.924409892970637
31
0
0
LINE
5
117
100
AcDbEntity
8
0
100
AcDbLine
10
2.6877540378443818
20
-19.296342703172414
30
0
11
-5.9724999999999948
21
-24.296342703172421
31
0
0
LINE
5
118
100
AcDbEntity
8
0
100
AcDbLine
10
-4.0275000000000247
20
-27.665181523893907
30
0
11
4.6327540378443519
21
-22.665181523893899
31
0
0
LINE
5
119
100
AcDbEntity
8
0
100
AcDbLine
10
4.6327540378443519
20
-22.665181523893899
30
0
11
2.6877540378443818
21
-19.296342703172414
31
0
0
LINE
5
120
100
AcDbEntity
8
0
100
AcDbLine
10
-20.956899571117699
20
-31.993859230352385
30
0
11
-17.066899571117663
21
-31.993859230352378
31
0
0
LINE
5
121
100
AcDbEntity
8
0
100
AcDbLine
10
-17.066899571117663
20
-31.993859230352378
30
0
11
-17.066899571117627
21
-21.993859230352371
31
0
0
LINE
5
122
100
AcDbEntity
8
0
100
AcDbLine
10
-20.956899571117628
20
-21.993859230352371
30
0
11
-20.956899571117699
21
-31.993859230352385
31
0
0
LINE
5
123
100
AcDbEntity
8
0
100
AcDbLine
10
-17.066899571117663
20
-31.993859230352378
30
0
11
-17.066899571117627
21
-21.993859230352371
31
0
0
LINE
5
124
100
AcDbEntity
8
0
100
AcDbLine
10
-20.956899571117628
20
-21.993859230352371
30
0
11
-20.956899571117699
21
-31.993859230352385
31
0
0
LINE
5
125
100
AcDbEntity
8
0
100
AcDbLine
10
-20.956899571117699
20
-31.993859230352385
30
0
11
-17.066899571117663
21
-31.993859230352378
31
0
0
LWPOLYLINE
5
126
100
AcDbEntity
8
0
100
AcDbPolyline
90
4
70
1
43
0.0
10
-20.956899571117699
20
-31.993859230352385
10
-20.956899571117628
20
-21.993859230352371
10
-17.066899571117627
20
-21.993859230352371
10
-17.066899571117663
20
-31.993859230352378
0
LINE
5
127
100
AcDbEntity
8
0
100
AcDbLine
10
-5.9724999999999939
20
-10.344673448205125
30
0
11
2.6877540378443641
21
-15.3446734482051
31
0
0
LINE
5
128
100
AcDbEntity
8
0
100
AcDbLine
10
4.6327540378443901
20
-11.97583462748365
30
0
11
-4.0274999999999954
21
-6.9758346274836587
31
0
0
LINE
5
129
100
AcDbEntity
8
0
100
AcDbLine
10
2.6877540378443641
20
-15.3446734482051
30
0
11
4.6327540378443901
21
-11.97583462748365
31
0
0
LINE
5
130
100
AcDbEntity
8
0
100
AcDbLine
10
20.000000000000039
20
-34.641016151377542
30
0
11
24.027492785982712
21
-27.665194018938422
31
0
0
LINE
5
131
100
AcDbEntity
8
0
100
AcDbLine
10
25.964024531204135
20
-24.311022645744874
30
0
11
30.000000000000036
21
-17.32050807568876
31
0
0
LINE
5
132
100
AcDbEntity
8
0
100
AcDbLine
10
-9.9999999999999893
20
-17.320508075688785
30
0
11
-5.9724999999999948
21
-24.296342703172421
31
0
0
LINE
5
133
100
AcDbEntity
8
0
100
AcDbLine
10
-4.0275000000000247
20
-27.665181523893907
30
0
11
2.9976021664879227e-14
21
-34.641016151377556
31
0
0
LINE
5
134
100
AcDbEntity
8
0
100
AcDbLine
10
2.9976021664879227e-14
20
-34.641016151377556
30
0
11
8.0550000000000157
21
-34.641016151377428
31
0
0
LINE
5
135
100
AcDbEntity
8
0
100
AcDbLine
10
11.945000000000059
20
-34.641016151377499
30
0
11
20.000000000000039
21
-34.641016151377542
31
0
0
LINE
5
136
100
AcDbEntity
8
0
100
AcDbLine
10
-9.9999999999999893
20
-17.320508075688785
30
0
11
-5.9724999999999939
21
-10.344673448205125
31
0
0
LINE
5
137
100
AcDbEntity
8
0
100
AcDbLine
10
-4.0274999999999954
20
-6.9758346274836587
30
0
11
0
21
0
31
0
0
ENDSEC
0
SECTION
2
OBJECTS
0
DICTIONARY
5
C
100
AcDbDictionary
3
ACAD_GROUP
350
D
3
ACAD_MLINESTYLE
350
17
0
DICTIONARY
5
D
100
AcDbDictionary
0
DICTIONARY
5
1A
330
C
100
AcDbDictionary
0
DICTIONARY
5
17
100
AcDbDictionary
0
ENDSEC
0
EOF
